GoogleLinkedinTwitter FaceBook Del.icio.us

        

Share :

musica


este grupo se llama R.E.M. y por ahora les pasaremos algunas de sus canciones para sacarlas en guitarra okey aqui vamos con el primer tema

OLD MAN KENSEY:
 
Played on a 12-string electric
 
Structure of the song:
INTRO, VERSE, CHORUS, VERSE, CHORUS, BRIDGE, VERSE, CHORUS,CHORUS
 
 
INTRO:
at first you only hear the bass, then the guitar joins in:
A:-2*-2*-2*-2*-2*-2*- (listen to the record for the right sound)
* = natural harmonic
 
then immediately:
 
e:---------------------------|----------------------------------|
B:------------------------0--|------------------------0---0-0---|
G:---------------------------|----------------------------2-2/4-| 2x
D:---------------------------|----------------------------------|
A:-0-0h2---0-2-/5-4-2p0-2----|-0-0h2---0-2-/5-4-2p0-2-----------|
E:---------------------------|----------------------------------|
 
 
VERSE:
e:-----------------|
B:--------0------0-|
G:-----------------| repeat this as many times as necessary;
D:------4----------| be sure to include the first A-note every time;
A:-0-h2--------0---| listen to the sample for the right timing
E:----------3------|
 
 
CHORUS:
e:-----------------------------|-------------------------------|
B:-----------------0---------0-|-----------------0-----0-----0-|
G:---------0---------2---2/4---|---------0---------2-----2-----|
D:------4----4-2-------2-------|------4----4-2-------2-----2---|
A:----2----------0-------------|----2----------0---------------|
E:-0---------------------------|-0-----------------------------|
 
e:-----------------------------|----------------0--------------|
B:-----------------0---------0-|----------------0--------------|
G:---------0---------2---2/4---|---------0------2--------------|
D:------4----4-2-------2-------|------4----4-2--2--------------|
A:----2----------0-------------|----2-----------0--------------|
E:-0---------------------------|-0-----------------------------|
 
 
BRIDGE:
e:------------------------------|---------------------0---------|
B:-------0------0------0------0-|---------------0---------0-----|
G:-----3----3------3------3-----|-3--1------------1---------1---| 4x
D:---4--------4------4------4---|---------(0)-------2---------2-|
A:------------------------------|-------------------------------|
E:-2----------------------------|-------------------------------|
 
 
 
Old Man Kensey wants to be a sign painter
First he"s got to learn to read
He"s gonna be a clown on TV
Flags at his elbow, time to breathe
That"s my folly, I believe
Drink up the lake Kensey"s awake
That"s my folly, that"s my mistake
 
Old Man Kensey wants to be a goalie
First he"s got to learn to count
He"s gonna be a clown on a circus mount
Letters to be signed in sopped-up tar
Kensey"s going far
John, Bill and Ed, stand on your head
That"s my folly, I"m ready to go
 
Old Man Kensey wants to be a dog catcher
First he"s got to learn to stand
He"s gonna be a clown in a marching band
Letters to be signed ransom greed
That"s my folly, I believe
Drink up the lake, John, Bill and Ed,
That"s my folly, that"s my mistake
Kensey"s awake, stand on your head
That"s my folly, I"m ready to go
 
 
 

Puede comunicarse con nosotros vía e-mail a musiclax80_guitars@live.com.ar

Este sitio web fue construido utilizando herramientas GeneSitios.com